ISO-10303-21;
HEADER;
FILE_DESCRIPTION (( 'STEP AP203' ),
    '1' );
FILE_NAME ('Q-QZWP-R4-10-633-M.STEP',
    '2020-12-23T01:22:15',
    ( '' ),
    ( '' ),
    'SwSTEP 2.0',
    'SolidWorks 2020',
    '' );
FILE_SCHEMA (( 'CONFIG_CONTROL_DESIGN' ));
ENDSEC;

DATA;
#1 = LINE ( 'NONE', #151, #95 ) ;
#2 = ORIENTED_EDGE ( 'NONE', *, *, #302, .F. ) ;
#3 = AXIS2_PLACEMENT_3D ( 'NONE', #55, #90, #255 ) ;
#4 = LINE ( 'NONE', #119, #146 ) ;
#5 = VERTEX_POINT ( 'NONE', #15 ) ;
#6 = EDGE_CURVE ( 'NONE', #285, #259, #45, .T. ) ;
#7 = CARTESIAN_POINT ( 'NONE',  ( -3.000000000000000000, 0.000000000000000000, 12.69999999999999929 ) ) ;
#8 = CARTESIAN_POINT ( 'NONE',  ( 3.000000000000000000, 0.000000000000000000, 0.000000000000000000 ) ) ;
#9 = ORIENTED_EDGE ( 'NONE', *, *, #197, .F. ) ;
#10 = CIRCLE ( 'NONE', #280, 12.69999999999999929 ) ;
#11 = DIRECTION ( 'NONE',  ( -1.000000000000000000, -0.000000000000000000, -0.000000000000000000 ) ) ;
#12 = CARTESIAN_POINT ( 'NONE',  ( -3.000000000000000000, 0.000000000000000000, 0.000000000000000000 ) ) ;
#13 = VERTEX_POINT ( 'NONE', #264 ) ;
#14 = CLOSED_SHELL ( 'NONE', ( #244, #204, #278, #98, #231, #142, #215, #101, #202, #218 ) ) ;
#15 = CARTESIAN_POINT ( 'NONE',  ( -3.000000000000000000, 1.555301434917138433E-15, -12.69999999999999929 ) ) ;
#16 = PERSON_AND_ORGANIZATION ( #232, #73 ) ;
#17 = PERSON_AND_ORGANIZATION_ROLE ( 'design_supplier' ) ;
#18 = UNCERTAINTY_MEASURE_WITH_UNIT (LENGTH_MEASURE( 1.000000000000000082E-05 ), #182, 'distance_accuracy_value', 'NONE');
#19 = AXIS2_PLACEMENT_3D ( 'NONE', #282, #116, #268 ) ;
#20 = CC_DESIGN_PERSON_AND_ORGANIZATION_ASSIGNMENT ( #44, #17, ( #198 ) ) ;
#21 = CALENDAR_DATE ( 2020, 23, 12 ) ;
#22 = APPLICATION_PROTOCOL_DEFINITION ( 'international standard', 'config_control_design', 1994, #313 ) ;
#23 = APPROVAL ( #297, 'UNSPECIFIED' ) ;
#24 = DIRECTION ( 'NONE',  ( -1.000000000000000000, 0.000000000000000000, -0.000000000000000000 ) ) ;
#25 = AXIS2_PLACEMENT_3D ( 'NONE', #250, #246, #299 ) ;
#26 = EDGE_CURVE ( 'NONE', #106, #312, #226, .T. ) ;
#27 = ORIENTED_EDGE ( 'NONE', *, *, #26, .F. ) ;
#28 = DIRECTION ( 'NONE',  ( -1.000000000000000000, -0.000000000000000000, -0.000000000000000000 ) ) ;
#29 = ORIENTED_EDGE ( 'NONE', *, *, #6, .F. ) ;
#30 = CARTESIAN_POINT ( 'NONE',  ( -1.250000000000000222, 0.000000000000000000, 5.000000000000000888 ) ) ;
#31 = ORIENTED_EDGE ( 'NONE', *, *, #197, .T. ) ;
#32 = DIRECTION ( 'NONE',  ( -1.000000000000000000, -0.000000000000000000, -0.000000000000000000 ) ) ;
#33 = FACE_OUTER_BOUND ( 'NONE', #294, .T. ) ;
#34 = ORIENTED_EDGE ( 'NONE', *, *, #160, .F. ) ;
#35 = ORIENTED_EDGE ( 'NONE', *, *, #305, .F. ) ;
#36 = ORIENTED_EDGE ( 'NONE', *, *, #64, .T. ) ;
#37 = CC_DESIGN_APPROVAL ( #23, ( #198 ) ) ;
#38 = EDGE_CURVE ( 'NONE', #92, #13, #333, .T. ) ;
#39 = DIRECTION ( 'NONE',  ( 1.000000000000000000, 0.000000000000000000, 0.000000000000000000 ) ) ;
#40 = ORIENTED_EDGE ( 'NONE', *, *, #6, .T. ) ;
#41 = CARTESIAN_POINT ( 'NONE',  ( 3.000000000000000000, 0.000000000000000000, 12.69999999999999929 ) ) ;
#42 = DESIGN_CONTEXT ( 'detailed design', #177, 'design' ) ;
#43 = LOCAL_TIME ( 9, 22, 15.00000000000000000, #170 ) ;
#44 = PERSON_AND_ORGANIZATION ( #232, #73 ) ;
#45 = CIRCLE ( 'NONE', #85, 5.000000000000001776 ) ;
#46 = PERSON_AND_ORGANIZATION_ROLE ( 'creator' ) ;
#47 = CALENDAR_DATE ( 2020, 23, 12 ) ;
#48 = CC_DESIGN_DATE_AND_TIME_ASSIGNMENT ( #147, #175, ( #136 ) ) ;
#49 = COORDINATED_UNIVERSAL_TIME_OFFSET ( 8, 0, .AHEAD. ) ;
#50 = AXIS2_PLACEMENT_3D ( 'NONE', #157, #28, #129 ) ;
#51 = CC_DESIGN_PERSON_AND_ORGANIZATION_ASSIGNMENT ( #16, #74, ( #198 ) ) ;
#52 = APPROVAL_PERSON_ORGANIZATION ( #173, #256, #243 ) ;
#53 = DIRECTION ( 'NONE',  ( 1.000000000000000000, 0.000000000000000000, 0.000000000000000000 ) ) ;
#54 = VECTOR ( 'NONE', #112, 1000.000000000000000 ) ;
#55 = CARTESIAN_POINT ( 'NONE',  ( -1.614212418857619014, 0.000000000000000000, 0.000000000000000000 ) ) ;
#56 = CARTESIAN_POINT ( 'NONE',  ( -3.000000000000000000, 5.000000000000000000, 0.000000000000000000 ) ) ;
#57 = ORIENTED_EDGE ( 'NONE', *, *, #64, .F. ) ;
#58 = AXIS2_PLACEMENT_3D ( 'NONE', #12, #93, #108 ) ;
#59 = ORIENTED_EDGE ( 'NONE', *, *, #160, .T. ) ;
#60 = ORIENTED_EDGE ( 'NONE', *, *, #327, .F. ) ;
#61 = DIRECTION ( 'NONE',  ( -1.000000000000000000, -0.000000000000000000, -0.000000000000000000 ) ) ;
#62 = AXIS2_PLACEMENT_3D ( 'NONE', #161, #32, #133 ) ;
#63 = DIRECTION ( 'NONE',  ( -1.000000000000000000, -0.000000000000000000, -0.000000000000000000 ) ) ;
#64 = EDGE_CURVE ( 'NONE', #285, #228, #143, .T. ) ;
#65 = CYLINDRICAL_SURFACE ( 'NONE', #154, 12.69999999999999929 ) ;
#66 = EDGE_LOOP ( 'NONE', ( #309, #208, #2, #266 ) ) ;
#67 = CYLINDRICAL_SURFACE ( 'NONE', #200, 5.000000000000000888 ) ;
#68 = ORIENTED_EDGE ( 'NONE', *, *, #38, .T. ) ;
#69 = DIRECTION ( 'NONE',  ( 0.000000000000000000, 0.000000000000000000, -1.000000000000000000 ) ) ;
#70 = CALENDAR_DATE ( 2020, 23, 12 ) ;
#71 = EDGE_CURVE ( 'NONE', #312, #106, #126, .T. ) ;
#72 = SECURITY_CLASSIFICATION_LEVEL ( 'unclassified' ) ;
#73 = ORGANIZATION ( 'UNSPECIFIED', 'UNSPECIFIED', '' ) ;
#74 = PERSON_AND_ORGANIZATION_ROLE ( 'creator' ) ;
#75 = MECHANICAL_CONTEXT ( 'NONE', #313, 'mechanical' ) ;
#76 = APPROVAL ( #223, 'UNSPECIFIED' ) ;
#77 = FACE_BOUND ( 'NONE', #254, .T. ) ;
#78 = DIRECTION ( 'NONE',  ( -1.000000000000000000, -0.000000000000000000, -0.000000000000000000 ) ) ;
#79 = EDGE_CURVE ( 'NONE', #13, #92, #319, .T. ) ;
#80 = ORIENTED_EDGE ( 'NONE', *, *, #71, .F. ) ;
#81 = DIRECTION ( 'NONE',  ( 0.000000000000000000, 0.000000000000000000, 1.000000000000000000 ) ) ;
#82 = ORIENTED_EDGE ( 'NONE', *, *, #104, .T. ) ;
#83 = ADVANCED_BREP_SHAPE_REPRESENTATION ( 'Q-QZWP-R4-10-633-M', ( #178, #25 ), #252 ) ;
#84 = FACE_OUTER_BOUND ( 'NONE', #66, .T. ) ;
#85 = AXIS2_PLACEMENT_3D ( 'NONE', #8, #292, #139 ) ;
#86 = CARTESIAN_POINT ( 'NONE',  ( 1.250000000000000444, 0.000000000000000000, 0.000000000000000000 ) ) ;
#87 = CARTESIAN_POINT ( 'NONE',  ( -1.614212418857619014, 0.000000000000000000, 0.000000000000000000 ) ) ;
#88 = EDGE_LOOP ( 'NONE', ( #237, #240 ) ) ;
#89 =( NAMED_UNIT ( * ) SI_UNIT ( $, .STERADIAN. ) SOLID_ANGLE_UNIT ( ) );
#90 = DIRECTION ( 'NONE',  ( -1.000000000000000000, -0.000000000000000000, -0.000000000000000000 ) ) ;
#91 = DIRECTION ( 'NONE',  ( 1.000000000000000000, 0.000000000000000000, 0.000000000000000000 ) ) ;
#92 = VERTEX_POINT ( 'NONE', #30 ) ;
#93 = DIRECTION ( 'NONE',  ( -1.000000000000000000, -0.000000000000000000, -0.000000000000000000 ) ) ;
#94 = APPROVAL_STATUS ( 'not_yet_approved' ) ;
#95 = VECTOR ( 'NONE', #105, 1000.000000000000000 ) ;
#96 = AXIS2_PLACEMENT_3D ( 'NONE', #128, #78, #334 ) ;
#97 = SHAPE_DEFINITION_REPRESENTATION ( #107, #83 ) ;
#98 = ADVANCED_FACE ( 'NONE', ( #33 ), #317, .F. ) ;
#99 = PERSON_AND_ORGANIZATION_ROLE ( 'design_owner' ) ;
#100 = DIRECTION ( 'NONE',  ( -1.000000000000000000, -0.000000000000000000, -0.000000000000000000 ) ) ;
#101 = ADVANCED_FACE ( 'NONE', ( #216 ), #65, .T. ) ;
#102 = FACE_OUTER_BOUND ( 'NONE', #118, .T. ) ;
#103 = CIRCLE ( 'NONE', #291, 5.000000000000000000 ) ;
#104 = EDGE_CURVE ( 'NONE', #259, #155, #4, .T. ) ;
#105 = DIRECTION ( 'NONE',  ( -1.000000000000000000, -0.000000000000000000, -0.000000000000000000 ) ) ;
#106 = VERTEX_POINT ( 'NONE', #193 ) ;
#107 = PRODUCT_DEFINITION_SHAPE ( 'NONE', 'NONE',  #136 ) ;
#108 = DIRECTION ( 'NONE',  ( 0.000000000000000000, 0.000000000000000000, 1.000000000000000000 ) ) ;
#109 = EDGE_LOOP ( 'NONE', ( #29, #36, #184, #194 ) ) ;
#110 = CC_DESIGN_DATE_AND_TIME_ASSIGNMENT ( #330, #325, ( #222 ) ) ;
#111 = LOCAL_TIME ( 9, 22, 15.00000000000000000, #174 ) ;
#112 = DIRECTION ( 'NONE',  ( -1.000000000000000000, -0.000000000000000000, -0.000000000000000000 ) ) ;
#113 = ORIENTED_EDGE ( 'NONE', *, *, #153, .T. ) ;
#114 = CARTESIAN_POINT ( 'NONE',  ( 3.000000000000000000, 0.000000000000000000, 5.000000000000001776 ) ) ;
#115 = AXIS2_PLACEMENT_3D ( 'NONE', #258, #39, #324 ) ;
#116 = DIRECTION ( 'NONE',  ( -1.000000000000000000, -0.000000000000000000, -0.000000000000000000 ) ) ;
#117 = EDGE_LOOP ( 'NONE', ( #57, #163, #82, #135 ) ) ;
#118 = EDGE_LOOP ( 'NONE', ( #68, #31, #322, #35 ) ) ;
#119 = CARTESIAN_POINT ( 'NONE',  ( -1.614212418857619014, 0.000000000000000000, 5.000000000000000888 ) ) ;
#120 = PERSON_AND_ORGANIZATION ( #232, #73 ) ;
#121 = AXIS2_PLACEMENT_3D ( 'NONE', #180, #24, #304 ) ;
#122 = APPROVAL_DATE_TIME ( #145, #76 ) ;
#123 = CYLINDRICAL_SURFACE ( 'NONE', #326, 5.000000000000000888 ) ;
#124 = CC_DESIGN_SECURITY_CLASSIFICATION ( #222, ( #198 ) ) ;
#125 = PLANE ( 'NONE',  #121 ) ;
#126 = CIRCLE ( 'NONE', #58, 5.000000000000000000 ) ;
#127 = ORIENTED_EDGE ( 'NONE', *, *, #79, .F. ) ;
#128 = CARTESIAN_POINT ( 'NONE',  ( 1.250000000000000444, 0.000000000000000000, 0.000000000000000000 ) ) ;
#129 = DIRECTION ( 'NONE',  ( 0.000000000000000000, 0.000000000000000000, 1.000000000000000000 ) ) ;
#130 = DIRECTION ( 'NONE',  ( -1.000000000000000000, -0.000000000000000000, -0.000000000000000000 ) ) ;
#131 = ORIENTED_EDGE ( 'NONE', *, *, #305, .T. ) ;
#132 = DIRECTION ( 'NONE',  ( 0.000000000000000000, 0.000000000000000000, -1.000000000000000000 ) ) ;
#133 = DIRECTION ( 'NONE',  ( 0.000000000000000000, 0.000000000000000000, 1.000000000000000000 ) ) ;
#134 = DIRECTION ( 'NONE',  ( 0.000000000000000000, 0.000000000000000000, 1.000000000000000000 ) ) ;
#135 = ORIENTED_EDGE ( 'NONE', *, *, #315, .T. ) ;
#136 = PRODUCT_DEFINITION ( 'UNKNOWN', '', #198, #42 ) ;
#137 = FACE_OUTER_BOUND ( 'NONE', #109, .T. ) ;
#138 = APPROVAL_PERSON_ORGANIZATION ( #221, #23, #248 ) ;
#139 = DIRECTION ( 'NONE',  ( 0.000000000000000000, 0.000000000000000000, 1.000000000000000000 ) ) ;
#140 = VERTEX_POINT ( 'NONE', #41 ) ;
#141 = DIRECTION ( 'NONE',  ( 0.000000000000000000, 0.000000000000000000, 1.000000000000000000 ) ) ;
#142 = ADVANCED_FACE ( 'NONE', ( #158 ), #67, .F. ) ;
#143 = LINE ( 'NONE', #295, #54 ) ;
#144 = COORDINATED_UNIVERSAL_TIME_OFFSET ( 8, 0, .AHEAD. ) ;
#145 = DATE_AND_TIME ( #21, #111 ) ;
#146 = VECTOR ( 'NONE', #272, 1000.000000000000000 ) ;
#147 = DATE_AND_TIME ( #201, #152 ) ;
#148 = CIRCLE ( 'NONE', #96, 5.000000000000000000 ) ;
#149 = PERSON_AND_ORGANIZATION ( #232, #73 ) ;
#150 = AXIS2_PLACEMENT_3D ( 'NONE', #261, #310, #81 ) ;
#151 = CARTESIAN_POINT ( 'NONE',  ( -1.614212418857619014, 1.555301434917138433E-15, -12.69999999999999929 ) ) ;
#152 = LOCAL_TIME ( 9, 22, 15.00000000000000000, #49 ) ;
#153 = EDGE_CURVE ( 'NONE', #259, #285, #189, .T. ) ;
#154 = AXIS2_PLACEMENT_3D ( 'NONE', #321, #162, #134 ) ;
#155 = VERTEX_POINT ( 'NONE', #311 ) ;
#156 = DIRECTION ( 'NONE',  ( 1.000000000000000000, 0.000000000000000000, 0.000000000000000000 ) ) ;
#157 = CARTESIAN_POINT ( 'NONE',  ( 3.000000000000000000, 0.000000000000000000, 0.000000000000000000 ) ) ;
#158 = FACE_OUTER_BOUND ( 'NONE', #167, .T. ) ;
#159 = ORIENTED_EDGE ( 'NONE', *, *, #323, .F. ) ;
#160 = EDGE_CURVE ( 'NONE', #191, #140, #196, .T. ) ;
#161 = CARTESIAN_POINT ( 'NONE',  ( -3.000000000000000000, 0.000000000000000000, 0.000000000000000000 ) ) ;
#162 = DIRECTION ( 'NONE',  ( -1.000000000000000000, -0.000000000000000000, -0.000000000000000000 ) ) ;
#163 = ORIENTED_EDGE ( 'NONE', *, *, #153, .F. ) ;
#164 = AXIS2_PLACEMENT_3D ( 'NONE', #230, #11, #267 ) ;
#165 = CARTESIAN_POINT ( 'NONE',  ( -1.614212418857619014, 0.000000000000000000, 5.000000000000000888 ) ) ;
#166 = ORIENTED_EDGE ( 'NONE', *, *, #176, .F. ) ;
#167 = EDGE_LOOP ( 'NONE', ( #9, #213, #131, #235 ) ) ;
#168 = EDGE_LOOP ( 'NONE', ( #293, #127 ) ) ;
#169 = DIRECTION ( 'NONE',  ( -1.000000000000000000, 0.000000000000000000, -0.000000000000000000 ) ) ;
#170 = COORDINATED_UNIVERSAL_TIME_OFFSET ( 8, 0, .AHEAD. ) ;
#171 = APPROVAL_DATE_TIME ( #275, #256 ) ;
#172 = LOCAL_TIME ( 9, 22, 15.00000000000000000, #301 ) ;
#173 = PERSON_AND_ORGANIZATION ( #232, #73 ) ;
#174 = COORDINATED_UNIVERSAL_TIME_OFFSET ( 8, 0, .AHEAD. ) ;
#175 = DATE_TIME_ROLE ( 'creation_date' ) ;
#176 = EDGE_CURVE ( 'NONE', #191, #5, #1, .T. ) ;
#177 = APPLICATION_CONTEXT ( 'configuration controlled 3d designs of mechanical parts and assemblies' ) ;
#178 = MANIFOLD_SOLID_BREP ( 'Ðý×', #14 ) ;
#179 = AXIS2_PLACEMENT_3D ( 'NONE', #260, #156, #132 ) ;
#180 = CARTESIAN_POINT ( 'NONE',  ( 3.000000000000000000, 12.69999999999999929, 0.000000000000000000 ) ) ;
#181 = FACE_OUTER_BOUND ( 'NONE', #168, .T. ) ;
#182 =( LENGTH_UNIT ( ) NAMED_UNIT ( * ) SI_UNIT ( .MILLI., .METRE. ) );
#183 = CARTESIAN_POINT ( 'NONE',  ( -1.614212418857619014, 6.123233995736767268E-16, -5.000000000000000888 ) ) ;
#184 = ORIENTED_EDGE ( 'NONE', *, *, #323, .T. ) ;
#185 = CYLINDRICAL_SURFACE ( 'NONE', #150, 5.000000000000000888 ) ;
#186 = CARTESIAN_POINT ( 'NONE',  ( -3.000000000000000000, 0.000000000000000000, 0.000000000000000000 ) ) ;
#187 = EDGE_LOOP ( 'NONE', ( #166, #59, #269, #271 ) ) ;
#188 = CYLINDRICAL_SURFACE ( 'NONE', #164, 12.69999999999999929 ) ;
#189 = CIRCLE ( 'NONE', #335, 5.000000000000001776 ) ;
#190 = DIRECTION ( 'NONE',  ( -1.000000000000000000, -0.000000000000000000, -0.000000000000000000 ) ) ;
#191 = VERTEX_POINT ( 'NONE', #227 ) ;
#192 = CC_DESIGN_PERSON_AND_ORGANIZATION_ASSIGNMENT ( #300, #46, ( #136 ) ) ;
#193 = CARTESIAN_POINT ( 'NONE',  ( -3.000000000000000000, 6.123233995736766282E-16, -5.000000000000000000 ) ) ;
#194 = ORIENTED_EDGE ( 'NONE', *, *, #104, .F. ) ;
#195 = APPLICATION_PROTOCOL_DEFINITION ( 'international standard', 'config_control_design', 1994, #177 ) ;
#196 = CIRCLE ( 'NONE', #50, 12.69999999999999929 ) ;
#197 = EDGE_CURVE ( 'NONE', #13, #106, #225, .T. ) ;
#198 = PRODUCT_DEFINITION_FORMATION_WITH_SPECIFIED_SOURCE ( 'ANY', '', #265, .NOT_KNOWN. ) ;
#199 = APPROVAL_ROLE ( '' ) ;
#200 = AXIS2_PLACEMENT_3D ( 'NONE', #87, #190, #141 ) ;
#201 = CALENDAR_DATE ( 2020, 23, 12 ) ;
#202 = ADVANCED_FACE ( 'NONE', ( #257, #77 ), #125, .F. ) ;
#203 = FACE_OUTER_BOUND ( 'NONE', #88, .T. ) ;
#204 = ADVANCED_FACE ( 'NONE', ( #102 ), #123, .F. ) ;
#205 = DIRECTION ( 'NONE',  ( 0.000000000000000000, 0.000000000000000000, 1.000000000000000000 ) ) ;
#206 = PLANE ( 'NONE',  #219 ) ;
#207 = DIRECTION ( 'NONE',  ( 0.000000000000000000, 0.000000000000000000, 1.000000000000000000 ) ) ;
#208 = ORIENTED_EDGE ( 'NONE', *, *, #176, .T. ) ;
#209 = CARTESIAN_POINT ( 'NONE',  ( 1.250000000000000222, 5.000000000000000000, 0.000000000000000000 ) ) ;
#210 = ORIENTED_EDGE ( 'NONE', *, *, #315, .F. ) ;
#211 = CARTESIAN_POINT ( 'NONE',  ( 1.250000000000000444, 6.123233995736766282E-16, -5.000000000000000000 ) ) ;
#212 = CARTESIAN_POINT ( 'NONE',  ( -1.250000000000000222, 0.000000000000000000, 0.000000000000000000 ) ) ;
#213 = ORIENTED_EDGE ( 'NONE', *, *, #79, .T. ) ;
#214 = AXIS2_PLACEMENT_3D ( 'NONE', #209, #169, #270 ) ;
#215 = ADVANCED_FACE ( 'NONE', ( #279, #203 ), #206, .F. ) ;
#216 = FACE_OUTER_BOUND ( 'NONE', #187, .T. ) ;
#217 = DATE_AND_TIME ( #47, #172 ) ;
#218 = ADVANCED_FACE ( 'NONE', ( #181 ), #281, .F. ) ;
#219 = AXIS2_PLACEMENT_3D ( 'NONE', #56, #53, #253 ) ;
#220 = PERSON_AND_ORGANIZATION_ROLE ( 'classification_officer' ) ;
#221 = PERSON_AND_ORGANIZATION ( #232, #73 ) ;
#222 = SECURITY_CLASSIFICATION ( '', '', #72 ) ;
#223 = APPROVAL_STATUS ( 'not_yet_approved' ) ;
#224 = LOCAL_TIME ( 9, 22, 15.00000000000000000, #144 ) ;
#225 = LINE ( 'NONE', #183, #262 ) ;
#226 = CIRCLE ( 'NONE', #274, 5.000000000000000000 ) ;
#227 = CARTESIAN_POINT ( 'NONE',  ( 3.000000000000000000, 1.555301434917138433E-15, -12.69999999999999929 ) ) ;
#228 = VERTEX_POINT ( 'NONE', #211 ) ;
#229 = CARTESIAN_POINT ( 'NONE',  ( 3.000000000000000000, 0.000000000000000000, 0.000000000000000000 ) ) ;
#230 = CARTESIAN_POINT ( 'NONE',  ( -1.614212418857619014, 0.000000000000000000, 0.000000000000000000 ) ) ;
#231 = ADVANCED_FACE ( 'NONE', ( #314 ), #238, .F. ) ;
#232 = PERSON ( 'UNSPECIFIED', 'UNSPECIFIED', 'UNSPECIFIED', ('UNSPECIFIED'), ('UNSPECIFIED'), ('UNSPECIFIED') ) ;
#233 = CIRCLE ( 'NONE', #62, 12.69999999999999929 ) ;
#234 = DIRECTION ( 'NONE',  ( 0.000000000000000000, 0.000000000000000000, 1.000000000000000000 ) ) ;
#235 = ORIENTED_EDGE ( 'NONE', *, *, #71, .T. ) ;
#236 = DIRECTION ( 'NONE',  ( -1.000000000000000000, -0.000000000000000000, -0.000000000000000000 ) ) ;
#237 = ORIENTED_EDGE ( 'NONE', *, *, #302, .T. ) ;
#238 = CYLINDRICAL_SURFACE ( 'NONE', #3, 5.000000000000000888 ) ;
#239 = DIRECTION ( 'NONE',  ( -1.000000000000000000, -0.000000000000000000, -0.000000000000000000 ) ) ;
#240 = ORIENTED_EDGE ( 'NONE', *, *, #276, .T. ) ;
#241 = CARTESIAN_POINT ( 'NONE',  ( 3.000000000000000000, 0.000000000000000000, 0.000000000000000000 ) ) ;
#242 = APPROVAL_DATE_TIME ( #217, #23 ) ;
#243 = APPROVAL_ROLE ( '' ) ;
#244 = ADVANCED_FACE ( 'NONE', ( #84 ), #188, .T. ) ;
#245 = AXIS2_PLACEMENT_3D ( 'NONE', #212, #91, #69 ) ;
#246 = DIRECTION ( 'NONE',  ( 0.000000000000000000, 0.000000000000000000, 1.000000000000000000 ) ) ;
#247 = VECTOR ( 'NONE', #236, 1000.000000000000000 ) ;
#248 = APPROVAL_ROLE ( '' ) ;
#249 = CC_DESIGN_PERSON_AND_ORGANIZATION_ASSIGNMENT ( #331, #99, ( #265 ) ) ;
#250 = CARTESIAN_POINT ( 'NONE',  ( 0.000000000000000000, 0.000000000000000000, 0.000000000000000000 ) ) ;
#251 = EDGE_CURVE ( 'NONE', #140, #308, #289, .T. ) ;
#252 =( GEOMETRIC_REPRESENTATION_CONTEXT ( 3 ) GLOBAL_UNCERTAINTY_ASSIGNED_CONTEXT ( ( #18 ) ) GLOBAL_UNIT_ASSIGNED_CONTEXT ( ( #182, #320, #89 ) ) REPRESENTATION_CONTEXT ( 'NONE', 'WORKASPACE' ) );
#253 = DIRECTION ( 'NONE',  ( 0.000000000000000000, 0.000000000000000000, -1.000000000000000000 ) ) ;
#254 = EDGE_LOOP ( 'NONE', ( #113, #40 ) ) ;
#255 = DIRECTION ( 'NONE',  ( 0.000000000000000000, 0.000000000000000000, 1.000000000000000000 ) ) ;
#256 = APPROVAL ( #94, 'UNSPECIFIED' ) ;
#257 = FACE_OUTER_BOUND ( 'NONE', #288, .T. ) ;
#258 = CARTESIAN_POINT ( 'NONE',  ( -1.250000000000000222, 0.000000000000000000, 0.000000000000000000 ) ) ;
#259 = VERTEX_POINT ( 'NONE', #114 ) ;
#260 = CARTESIAN_POINT ( 'NONE',  ( -1.250000000000000222, 5.000000000000000000, 0.000000000000000000 ) ) ;
#261 = CARTESIAN_POINT ( 'NONE',  ( -1.614212418857619014, 0.000000000000000000, 0.000000000000000000 ) ) ;
#262 = VECTOR ( 'NONE', #306, 1000.000000000000000 ) ;
#263 = PRODUCT_RELATED_PRODUCT_CATEGORY ( 'detail', '', ( #265 ) ) ;
#264 = CARTESIAN_POINT ( 'NONE',  ( -1.250000000000000222, 6.123233995736767268E-16, -5.000000000000000888 ) ) ;
#265 = PRODUCT ( 'Q-QZWP-R4-10-633-M', 'Q-QZWP-R4-10-633-M', '', ( #75 ) ) ;
#266 = ORIENTED_EDGE ( 'NONE', *, *, #251, .F. ) ;
#267 = DIRECTION ( 'NONE',  ( 0.000000000000000000, 0.000000000000000000, 1.000000000000000000 ) ) ;
#268 = DIRECTION ( 'NONE',  ( 0.000000000000000000, 0.000000000000000000, 1.000000000000000000 ) ) ;
#269 = ORIENTED_EDGE ( 'NONE', *, *, #251, .T. ) ;
#270 = DIRECTION ( 'NONE',  ( -0.000000000000000000, 0.000000000000000000, 1.000000000000000000 ) ) ;
#271 = ORIENTED_EDGE ( 'NONE', *, *, #276, .F. ) ;
#272 = DIRECTION ( 'NONE',  ( -1.000000000000000000, -0.000000000000000000, -0.000000000000000000 ) ) ;
#273 = CC_DESIGN_APPROVAL ( #256, ( #222 ) ) ;
#274 = AXIS2_PLACEMENT_3D ( 'NONE', #186, #239, #287 ) ;
#275 = DATE_AND_TIME ( #70, #43 ) ;
#276 = EDGE_CURVE ( 'NONE', #5, #308, #303, .T. ) ;
#277 = VECTOR ( 'NONE', #61, 1000.000000000000000 ) ;
#278 = ADVANCED_FACE ( 'NONE', ( #137 ), #185, .F. ) ;
#279 = FACE_BOUND ( 'NONE', #318, .T. ) ;
#280 = AXIS2_PLACEMENT_3D ( 'NONE', #229, #307, #207 ) ;
#281 = PLANE ( 'NONE',  #179 ) ;
#282 = CARTESIAN_POINT ( 'NONE',  ( -3.000000000000000000, 0.000000000000000000, 0.000000000000000000 ) ) ;
#283 = DIRECTION ( 'NONE',  ( 0.000000000000000000, 0.000000000000000000, 1.000000000000000000 ) ) ;
#284 = CARTESIAN_POINT ( 'NONE',  ( -1.614212418857619014, 0.000000000000000000, 12.69999999999999929 ) ) ;
#285 = VERTEX_POINT ( 'NONE', #286 ) ;
#286 = CARTESIAN_POINT ( 'NONE',  ( 3.000000000000000000, 6.123233995736768255E-16, -5.000000000000001776 ) ) ;
#287 = DIRECTION ( 'NONE',  ( 0.000000000000000000, 0.000000000000000000, 1.000000000000000000 ) ) ;
#288 = EDGE_LOOP ( 'NONE', ( #60, #34 ) ) ;
#289 = LINE ( 'NONE', #284, #277 ) ;
#290 = LINE ( 'NONE', #165, #247 ) ;
#291 = AXIS2_PLACEMENT_3D ( 'NONE', #86, #63, #205 ) ;
#292 = DIRECTION ( 'NONE',  ( -1.000000000000000000, -0.000000000000000000, -0.000000000000000000 ) ) ;
#293 = ORIENTED_EDGE ( 'NONE', *, *, #38, .F. ) ;
#294 = EDGE_LOOP ( 'NONE', ( #210, #159 ) ) ;
#295 = CARTESIAN_POINT ( 'NONE',  ( -1.614212418857619014, 6.123233995736767268E-16, -5.000000000000000888 ) ) ;
#296 = CC_DESIGN_PERSON_AND_ORGANIZATION_ASSIGNMENT ( #120, #220, ( #222 ) ) ;
#297 = APPROVAL_STATUS ( 'not_yet_approved' ) ;
#298 = CC_DESIGN_APPROVAL ( #76, ( #136 ) ) ;
#299 = DIRECTION ( 'NONE',  ( 1.000000000000000000, 0.000000000000000000, 0.000000000000000000 ) ) ;
#300 = PERSON_AND_ORGANIZATION ( #232, #73 ) ;
#301 = COORDINATED_UNIVERSAL_TIME_OFFSET ( 8, 0, .AHEAD. ) ;
#302 = EDGE_CURVE ( 'NONE', #308, #5, #233, .T. ) ;
#303 = CIRCLE ( 'NONE', #19, 12.69999999999999929 ) ;
#304 = DIRECTION ( 'NONE',  ( -0.000000000000000000, 0.000000000000000000, 1.000000000000000000 ) ) ;
#305 = EDGE_CURVE ( 'NONE', #92, #312, #290, .T. ) ;
#306 = DIRECTION ( 'NONE',  ( -1.000000000000000000, -0.000000000000000000, -0.000000000000000000 ) ) ;
#307 = DIRECTION ( 'NONE',  ( -1.000000000000000000, -0.000000000000000000, -0.000000000000000000 ) ) ;
#308 = VERTEX_POINT ( 'NONE', #7 ) ;
#309 = ORIENTED_EDGE ( 'NONE', *, *, #327, .T. ) ;
#310 = DIRECTION ( 'NONE',  ( -1.000000000000000000, -0.000000000000000000, -0.000000000000000000 ) ) ;
#311 = CARTESIAN_POINT ( 'NONE',  ( 1.250000000000000444, 0.000000000000000000, 5.000000000000000000 ) ) ;
#312 = VERTEX_POINT ( 'NONE', #316 ) ;
#313 = APPLICATION_CONTEXT ( 'configuration controlled 3d designs of mechanical parts and assemblies' ) ;
#314 = FACE_OUTER_BOUND ( 'NONE', #117, .T. ) ;
#315 = EDGE_CURVE ( 'NONE', #155, #228, #103, .T. ) ;
#316 = CARTESIAN_POINT ( 'NONE',  ( -3.000000000000000000, 0.000000000000000000, 5.000000000000000000 ) ) ;
#317 = PLANE ( 'NONE',  #214 ) ;
#318 = EDGE_LOOP ( 'NONE', ( #80, #27 ) ) ;
#319 = CIRCLE ( 'NONE', #245, 5.000000000000000888 ) ;
#320 =( NAMED_UNIT ( * ) PLANE_ANGLE_UNIT ( ) SI_UNIT ( $, .RADIAN. ) );
#321 = CARTESIAN_POINT ( 'NONE',  ( -1.614212418857619014, 0.000000000000000000, 0.000000000000000000 ) ) ;
#322 = ORIENTED_EDGE ( 'NONE', *, *, #26, .T. ) ;
#323 = EDGE_CURVE ( 'NONE', #228, #155, #148, .T. ) ;
#324 = DIRECTION ( 'NONE',  ( 0.000000000000000000, 0.000000000000000000, -1.000000000000000000 ) ) ;
#325 = DATE_TIME_ROLE ( 'classification_date' ) ;
#326 = AXIS2_PLACEMENT_3D ( 'NONE', #332, #100, #283 ) ;
#327 = EDGE_CURVE ( 'NONE', #140, #191, #10, .T. ) ;
#328 = CALENDAR_DATE ( 2020, 23, 12 ) ;
#329 = APPROVAL_PERSON_ORGANIZATION ( #149, #76, #199 ) ;
#330 = DATE_AND_TIME ( #328, #224 ) ;
#331 = PERSON_AND_ORGANIZATION ( #232, #73 ) ;
#332 = CARTESIAN_POINT ( 'NONE',  ( -1.614212418857619014, 0.000000000000000000, 0.000000000000000000 ) ) ;
#333 = CIRCLE ( 'NONE', #115, 5.000000000000000888 ) ;
#334 = DIRECTION ( 'NONE',  ( 0.000000000000000000, 0.000000000000000000, 1.000000000000000000 ) ) ;
#335 = AXIS2_PLACEMENT_3D ( 'NONE', #241, #130, #234 ) ;
ENDSEC;
END-ISO-10303-21;
